Make your own free website on Tripod.com

Youth Brigade Tabs

HOME

Send me any tabs that you have even if they are here but you have a different way to play the song!!

Artist: Youth Brigade
Song: All style, no substance
Transcribed by: Lars Ekman (evil.elvis@swipnet.se)

x = flagolette-stuff

Riff 1:
G -11--
D -9---
A -----
E -----

Riff 2:
G -------9--11--
D -9--x--9--11--
A -9--x--7--9---
E -7--x---------

Riff 3:
G ------9--
D --11--9--
A --11--7--
E --9------

The above x4, then:
G --9--11--
D --9--11--
A --7--9---
E ---------

Riff 4:
G --------7--9--
D --9--4--7--9--
A --9--4--5--7--
E --7--2--------

Figure out the song structure through listening to the CD.

------------------------------------------------------------------------

Artist: Youth Brigade
Song: I'm so much better without you
Transcribed by: Lars Ekman (evil.elvis@swipnet.se)

 

Intro:
A --8--9--8--
E --9--9--9--

Then the verse:
G --9---------
D --9--9--11--
A --7--9--11--
E -----7--9---

The bridge:
G --------8--10--
D --5--7--8--10--
A --5--7--8--10--
E --3--5--6--8---

The verse, then the intro, then the verse again, and then this refrain:
D --5--7--8--10--12--
A --5--7--8--10--12--
E --3--5--6--8---10--

The break:
D --11--
A --11--
E --9---

Then the verse, then then the refrain - fade.

------------------------------------------------------------------------

Artist: Youth Brigade
Song: Guns are for
Tabbed by: Lars Ekman (evil.elvis@swipnet.se)

b = bend

During bass intro:
D --5--5--5--5--5--5------------------------------------------------
A --5--5--5--5--5--5------------------------------------------------
E --3--3--3--3--3--3------------------------------------------------
b b

Verse:
G -----7-----10--
D --5--7--8--10--
A --5--5--8--8---
E --3-----6------

Refrain:
G ---------7------------
D --10--8--7--8--10--8--
A --10--8--5--8--10--8--
E --8---6-----6--8---6--

Then jump directly to the verse riff. After that this refrain riff:
G ---------7----------------
D --10--8--7--8--10--8--5~--
A --10--8--5--8--10--8--5~--
E --8---6-----6--8---6--3~--

After that the bass-alone-part comes. After that, this bridge:
G --8-----7-----8-----7--
D --8--8--7--5--8--9--7--
A --6--8--5--5--6--9--5--
E -----6-----3-----7-----

After that, the verse and then the refrain again. Then the verse for
a short time, and then the bridge again.

------------------------------------------------------------------------

Artist: Youth Brigade
Song: It just doesn't matter
Tabbed by: Lars Ekman (evil.elvis@swipnet.se)

During the bass intro:
G -----------------------------------------5--
D --2--5--2--5--2--5--2--5--7--5--2--5--7--5--
A --2--5--2--5--2--5--2--5--7--5--2--5--7--3--
E --0--3--0--3--0--3--0--3--5--3--0--3--5-----
b b

Verse:
G -----------------------------5--
D --2--5--2--5--7--5--2--5--7--5--
A --2--5--2--5--7--5--2--5--7--3--
E --0--3--0--3--5--3--0--3--5-----

Refrain:
G --9---------(7)--
D --9--9--10--(7)--
A --7--9--10--(5)--
E -----7--8--------
m

Bridge:
G --12------10------
D --12--12--10--10--
A --10--12--8---10--
E ------10------8---

------------------------------------------------------------------------

Artist: Youth Brigade
Song: It's not enough
Tabbed by: Lars Ekman (evil.elvis@swipnet.se)

Intro:
D --7--
A --7--
E --5--

Verse:
G ------------------4--3--------------
D --7--10--7--9--5--4--3--5--3--5--7--
A --7--10--7--9--5--2--1--5--3--5--7--
E --5--8---5--7--3--------3--1--3--5--

Refrain:
D --3--2--5--3--3--2--5--3--3--2--5--3--3--5--(7)--
A --3--2--5--3--3--2--5--3--3--2--5--3--3--5--(7)--
E --1--0--3--1--1--0--3--1--1--0--3--1--1--3--(5)--

Then directly the verse. Then the refrain. Then the verse riffs
during the solo. Then the refrain after the solo.

------------------------------------------------------------------------

Artist: Youth Brigade
Song: Let me be
Tabbed by: Lars Ekman (evil.elvis@swipnet.se)

p = palm mute

Intro:
E --0--2--3--0--2--3--2--3--5--5--3--5--7--7--5--3--

Verse:
D --------5-----
A --2--5--3--7--
E --0--3-----5--
(chords played brokenin in an unorganized manner)

Refrain:
G --------7-----
D --2--5--7--7--
A --2--5--5--7--
E --0--3-----5--

Then the verse again, and then the refrain. Then this bridge,
played somewhat broken:
G --5--7--9--5--7-----
D --5--7--9--5--7--2--
A --3--5--7--3--5--2--
E -----------------0--
p p

Then the intro again. Then the verse, and then the refrain.

------------------------------------------------------------------------

Artist: Youth Brigade
Song: Punkrock mom
Tabbed by: Lars Ekman (evil.elvis@swipnet.se)

Intro and pre-verse:
B -----7--8--7--7--------------------------------------------------
G --7--7--7--7--7-----5--5--7--5--5-----4--5--4--5--4-----6--7--6--
D --7--------------0--5--5--5--5--5--5--5--5--5--5--5--3--7--7--7--
A --5-----------------3--------------5-----------------3-----------
E -----------------------------------3-----------------5-----------

Verse:
G --7--5--------
D --7--5--5--7--
A --5--3--5--7--
E --------3--5--

Bridge:
D --5--7--
A --5--7--
E --3--5--

Then the verse again with parts palm-muted. Then the bridge and the
verse again. Then the bridge and the verse.